Simple Plan Fans !

C'est un forum pour les fans de Simple Plan. Vous êtes tous les bienvenus!
 
AccueilAccueil  PortailPortail  FAQFAQ  RechercherRechercher  S'enregistrerS'enregistrer  MembresMembres  GroupesGroupes  ConnexionConnexion  

Partagez | 
 

 Tablature Bass

Aller en bas 
AuteurMessage
Invité
Invité
avatar


MessageSujet: Tablature Bass   Jeu 22 Déc - 21:19

Tabs de Crazy!!! SP kao

Intro

|--------------------------------------------------------------------------|

|--------------------------------------------------------------------------|

|6666666666666666-3333333333333333-----------------------------------------|

|----------------------------------4444444444444444-6666666666666666-------|



Verse 1

|--------------------------------------------------------------------------|

|--------------------------------------------------------------------------|

|6666666666666666-3333333333333333-------------------6666666666666666------|

|----------------------------------44444444-66666666-----------------------|



Chorus

|--------------------------------------------------------------------------|

|--------------------------------------------------------------------------|

|6666666666666666-3333333333333333-----------------------------------------|

|----------------------------------4444444444444444-6666666666666666-------|



After Chorus

|--------------------------------------------------------------------------|

|--------------------------------------------------------------------------|

|--------------------------------------------------------------------------|

|6666666666666666----------------------------------------------------------|



Verse 2

|--------------------------------------------------------------------------|

|--------------------------------------------------------------------------|

|----------------------------------44444444-66666666-----------------------|

|6666666666666666-3333333333333333-------------------666666666666666-------|



[Chorus]



After Chorus 2

|--------------------------------------------------------------------------|

|--------------------------------------------------------------------------|

|6666666666666666-3333333333333333-6666666666666666-3333333333333333-------|

|--------------------------------------------------------------------------|



Verse 3

|--------------------------------------------------------------------------|

|--------------------------------------------------------------------------|

|6666666666666666-3333333333333333-------------------6666666666666666------|

|----------------------------------44444444-66666666-----------------------|



[Chorus x2]
Revenir en haut Aller en bas
Invité
Invité
avatar


MessageSujet: Re: Tablature Bass   Jeu 22 Déc - 21:22

Tabs I'm just a kid!!! SP

Verse 1 ::Chorus::



G---------------------------------------------------------|

D---------------------------------------------------------|

A-4-4-4-----------------------4-4-4-----------------------|

E--------2-2-2--4-4-4--4-4-4---------2-2-2--4-4-4--2-2-2--|



2nd Part ::Chorus::



G---------------------------------------------------------|

D---------------------------------------------------------|

A--------------4-4-4-4------------------------------------|

E0-0-0-2-2-2-2--------4-4-4-4--0-0-0--2-2-2-2--4-4-4-4-4-4|



Verse 2



G---------------------------------|

D---------------------------------|

A-4-4-4-4-------------------------|

E----------2-2-2-2-4-4-4-4--4-4-4-|



G---------------------------------------------------------

D---------------------------------------------------------

A-4-4-4-4------------------------4-4-4--------------------

E----------2-2-2-2-4-4-4--4-4-4---------2-2-2-2-4-4-4-4---



G-------|--------------------------------------------

D-------|--------------------------------------------

A-------|--------------------------------------------

E-4-4-4-|-1-1-1-1--2-2-2-2--4-4-4-4-4-4-4-4--0-0-0-0-



G----------------|

D----------------|

A----------------|

E-2-2-2-2--4-4-4-|



Play all of Chorus 1 time them play this...



G---------------------------------------------------------|

D---------------------------------------------------------|

A---------------------------------------------------------|

E-2-2-2-2-2-2-2-4--4-4-4-4-4-4-4--1-1-1-1--1-4-2--2-2-2-2-|



G-----------------------------------------------------|

D-----------------------------------------------------|

A-4------------------------4-4-4-4--------------------|

E----2-2-2-2-2-2-2-4--4-4----------0-0-0-0-0-0-0-0-4--|



Rest until 2:06 then go back to Chorus, play 2 times then repeat 2nd part of

Chorus once. Play Verse 1 ::Chorus:: 2 times until last three beats.

Then play:



G----------|

D----------|

A-4--------|

E---4-2----|
Revenir en haut Aller en bas
titetaly
* Membre Spécial *
avatar

Féminin Nombre de messages : 1200
Localisation : france
Date d'inscription : 19/11/2005

MessageSujet: Re: Tablature Bass   Ven 23 Déc - 6:37

ah ça c pluto cool lol ! je les ai déjà mais j'ai du mal à me caler lol !
j'en mettrais d'autres si vous vous voulez paske je els ai rpatikement toutes lol ^^
Revenir en haut Aller en bas
Voir le profil de l'utilisateur
Invité
Invité
avatar


MessageSujet: Re: Tablature Bass   Ven 23 Déc - 6:44

ca serai cool kao houra
Revenir en haut Aller en bas
titetaly
* Membre Spécial *
avatar

Féminin Nombre de messages : 1200
Localisation : france
Date d'inscription : 19/11/2005

MessageSujet: Re: Tablature Bass   Ven 23 Déc - 7:05

faut juste ke je les retrouve ! je ferais ça ce soir sans doute ^^
Revenir en haut Aller en bas
Voir le profil de l'utilisateur
Invité
Invité
avatar


MessageSujet: Re: Tablature Bass   Ven 23 Déc - 7:12

ouin merci ^^ moi je les ai toute trouvé mai jai la flème de les mettre ^^ kao guitare comme la bass jai trouvé les tabs ^^
Revenir en haut Aller en bas
titetaly
* Membre Spécial *
avatar

Féminin Nombre de messages : 1200
Localisation : france
Date d'inscription : 19/11/2005

MessageSujet: Re: Tablature Bass   Ven 23 Déc - 17:25

ADDICTED

This song is played with the E tuned a half-step down.

Intro: Play 2x

G ----------------------------|
D ----------------------------|
A -444444444444---------------|
Eb--------------333333-555555-|

Verse:

G ---------------------------------------------------|
D ---------------------------------------------------|
A -444444444444444444444444--------------------------|
Eb--------------------------33333333333333333333333--|

G -----------------------------------------------------|
D --------------------111-333--------------------------|
A -444444444444444444----------------------------------|
Eb----------------------------33333333333333333333333--|

Pre-chorus:

G -------------------|
D -------------------|
A -------------------|
Eb-0000-2222-3333-5--|

Chorus is Intro played 2x

After Chorus (Now Its Over...)

G ----------------------2x-|----
D -------------------------|----
A ----------44-------------|----
Eb-00-22-33----55555555----|-3--

Intro 2x

Verse

Pre-chorus 2:

G --------------------------------------------|
D --------------------------------------------|
A --------------------------------------------|
Eb-0000-2222-3333-5555-000000-222222-333333-5-|

Intro 2x

After Chorus

Bridge (i don't know why im still waiting...):

G ---------------------------------------------------------------------|
D ---------------------------------------------------------------------|
A ----------------------444444-----------------------------------------|
Eb-333333-222222-000000--------000000-222222-333333333333-555555555555-|

G -------------------------------------------------------|
D -------------------------------------------------------|
A -------------------------------------------------------|
Eb-333333333333-555555555555-000000-222222-333333-555555-|

Intro 4x

After Chorus

Intro 4x

Last Note:

G ---------------|
D ---------------|
A --4-(let ring)-|
Eb---------------|


DON'T WANNA THINK ABOUT YOU

Intro: ~Wait~

Pre-Verse: Bass (x2)
eb|-------------------------------------------------------------------|
Gb|-------------------------------------------------------------------|
Db|--5-5-5-5-5-5-5-5-5-5-5-5------------------------------------------|
Eb|---------------------------3-3-3-3-3-3—-5-5-5-5-5-5----------------|

Verse: Bass
eb|-------------------------------------------------------------------|
Gb|-------------------------------------------------------------------|
Db|--5-5-5-5-5-5-5-5-5-5-5-5------------------------------------------|
Eb|---------------------------5-5-5-5-5-5-5-5-5-5-5-5-----------------|

Verse Continued: Bass
eb|-------------------------------------------------------------------|
Gb|-------------------------------------------------------------------|
Db|--5-5-5-5-5-5-5-5-5-5----------------------------------------------|
Eb|-----------------------0-2-3-3-3-3-3-3-3-3-3-3-3-3-----------------|

Pre-Chorus: Bass
eb|-------------------------------------------------------------------|
Gb|-------------------------------------------------------------------|
Db|-------------------------------------------------------------------|
Eb|--5-5-5-5-5-5-3-3-3-3-3-3-5-5-5-5-5-5-3----------------------------|

Chorus: Bass
eb|-------------------------------------------------------------------|
Gb|-------------------------------------------------------------------|
Db|--5-5-5-5-5-5------------------------------------------------------|
Eb|---------------5-5-5-5-5-5--7-7-7-7-7-7--3-3-3-3-3-3---------------|

Chorus Continued: Bass
eb|-------------------------------------------------------------------|
Gb|-------------------------------------------------------------------|
Db|--5-5-5-5-5-5------------------------------------------------------|
Eb|---------------5-5-5-5-5-5--7-7-7-7-7-7--5-5-5-5-5-5---------------|

Post-Chorus: Bass
eb|-------------------------------------------------------------------|
Gb|-------------------------------------------------------------------|
Db|-------------------------------------------------------------------|
Eb|--0-0-0-0-0-3-3-3-3-3-0-0-0-0-0-3--3-------------------------------|

{Return To Pre-Verse}

{Return To Verse}

{Return To Pre-Chorus}

{Return To Chorus}

{Return To Post-Chorus}

Pre-Bridge: Bass
eb|-------------------------------------------------------------------|
Gb|-------------------------------------------------------------------|
Db|-------------------------------------------------------------------|
Eb|--5-5-5-5-5-5-5-5-5-5-5-5------------------------------------------|

Bridge: Bass (x3)
eb|-------------------------------------------------------------------|
Gb|-------------------------------------------------------------------|
Db|---------------------------------------------5-5-5-4-4-4-----------|
Eb|--7-7-7-7-7-7-7--3-3-3-3-3-3-3--5-5-5-5-5-5------------------------|

Interlude: ~Wait~

{Return To Chorus}

{Return To Post-Chorus}

Outro: Bass
{(Play Chorus For Outro)(x4)}

End: Bass
eb|-------------------------------------------------------------------|
Gb|-------------------------------------------------------------------|
Db|-------------------------------------------------------------------|
Eb|--3-3-3-3-3-3-3--3-3-3-3-3-3-3--3-3-3-3-3-3-5-3-2-3~~~~~~~~~~~~~~~~|


GROW UP

Grow Up Bass Tab by Simple Plan, www.Ultimate-Guitar.Com

G ------------------------------------------------------------------------|
D ------------------------------------------------------------------------|
A 22---------------22---------------22-----------------22-----------------|
E -----------------------------------------000-222------------000-222-----|

G ---------------------|---------|
D ---------------------|---------|
A ---------------------|---------|
E 000-222--44220-------|-000000-2|


G ----------------------------|
D ----------------------------|x2
A 222222-444444---------------|
E --------------000000-222222-|


G ---------------|
D ---------------|
A ---------------|
E 000000-222222--|


GOD MUST HATE ME

Eb tuning...

Intro:
G|----------------------------------------------------
D|---------------------------------------------------- x2
A|2222------------------------------------------------
Eb|----3333--1111--3333--444---------------------------

Verse:
G|----------------------------------------------------
D|----------------------------------------------------
A|2222------------------------------------------------
Eb|----3333--1111--3333--------------------------------

Pre chorus:
G|----------------------------------------------------
D|----------------------------------------------------
A|----------------------------------------------------
Eb|11111111--3333333-----------------------------------

Chorus:
G|----------------------------------------------------
D|---------------------------------------------------- x2
A|2222------------------------------------------------
Eb|----3333--1111--3333--------------------------------

"Im breakin down...."
G|----------------------------------------------------
D|----------------------------------------------------
A|----------------------------------------------------
Eb|5555--2222--1111--3---------------------------------

Bridge:
G|----------------------------------------------------
D|----------------------------------------------------
A|----------------------------22----------------------
Eb|11111111--3333333--1111111--------------------------

Chorus 2:
G|----------------------------------------------------
D|----------------------------------------------------
A|4444------------------------------------------------
Eb|----5555--3333--5555--------------------

I'D DO ANYTHING

|-----------------------------------------|
|-----4--7------6--9----------------------|
|--5---------7----------0---0-0-0-0-0-0---|
|-----------------------------------------| repeat 3x (3rd time don't play the last 6 open notes.)

Rest

Then start playing this at 0:17
|-------------------|
|-----4-7------6-9--|
|--5--------7-------|
|-------------------|

Verse (2x)
|---------------------------------------------------------|
|---------------------------------------------4-7-----6-9-|
|------------------------------------------5-------7------|
|--5-5-5-5-5-5--4-4-4-4-4-4--2-2-2-2-2-2------------------|

(1x)
|-------------------------------------------------------|
|-------------------------------------------------------|
|--2-2-2-2-2-2--4-4-4-4-4-4--5-5-5-5-5-5--7-7-7-7-7-7-7-|
|-------------------------------------------------------|

Chorus (2x)
|---------------------------------------------------------------|
|---------------------------------------------------------------|
|--5-5--~-------------------------------------------5-5-5-5-5-5-|
|---------5-5-5-5-5-5-5--0-0-0-0-0-0--2-2-2-2-2-2---------------|

|---------------------------------------------------------|
|---------------------------------------------------------|
|-------------------------------------------5-5-5-5-5-5-5-|
|--5-5-5-5-5-5--0-0-0-0-0-0--2-2-2-2-2-2-2----------------|


Verse 2
|-------------------|
|-----4-7------6-9--|
|--5--------7-------|
|-------------------|

(2x)
|---------------------------------------------------------|
|---------------------------------------------4-7-----6-9-|
|------------------------------------------5-------7------|
|--5-5-5-5-5-5--4-4-4-4-4-4--2-2-2-2-2-2------------------|

(1x)
|-------------------------------------------------------|
|-------------------------------------------------------|
|--2-2-2-2-2-2--4-4-4-4-4-4--7-7-7-7-7-7-7--------------|
|-------------------------------------------------------|

Play Chorus 2x

Rest while Mark sings..then start to play this at 2:12

|------------|
|------------|
|--5---------|
|-----5-0-2--|

Chorus 3x


THE CHRISTMAS LIST

Intro
G|--------------------------------------------------------------------|
D|--------------------------------------------------------------------|
A|4444444444-------44-4-44-4-------44-4-44-4-------44-4---------------|
E|-----------22-44-----------22-44-----------22-44--------444444------|
Verse x2
G|--------------------------------------------------------------------|
D|--------------------------------------------------------------------|
A|444444444444444-----------------------------------------------------|
E|----------------2222222222-444444444--------------------------------|
Pre-chorus
G|--------------------------------------------------------------------|
D|--------------------------------------------------------------------|
A|4444----------------------------------------------------------------|
E|-----4-4444-2-22222222-4~-------------------------------------------|
Chorus
G|--------------------------------------------------------------------|
D|--------------------------------------------------------------------|
A|4444----------------4444------44444444------------------------------|
E|-----4444-2222-4444------2222---------------------------------------|
Chorus continued
G|--------------------------------------------------------------------|
D|--------------------------------------------------------------------|
A|4444----------------4~------44444444--------------------------------|
E|-----4444-2222-4444-----4~-----------2~-----------------------------|
Intro short
G|--------------------------------------------------------------------|
D|--------------------------------------------------------------------|
A|44-4-44-4-------44-4-44-4-------------------------------------------|
E|----------22-44----------22-44--------------------------------------|
Bridge
G|--------------------------------------------------------------------|
D|--------------------------------------------------------------------|
A|4~----4~----4444444-----------------4~------------------------------|
E|--4~2~--4~2---------4444444-2222222---4~2~--------------------------|
Chorus long
G|--------------------------------------------------------------------|
D|--------------------------------------------------------------------|
A|-------444444----4444----------------4444------44444444-------------|
E|444444--------22------4444-2222-4444------2222----------------------|
Chorus long continued
G|--------------------------------------------------------------------|
D|--------------------------------------------------------------------|
A|4444-----------------4~------44444444----------44444444-------------|
E|-----4444-2222-4444------4~-----------22222222----------2~----------|
Outro x3
G|--------------------------------------------------------------------|
D|--------------------------------------------------------------------|
A|4444----------------------------------------------------------------|
E|-----4444-2222-4444-------------------------------------------------|
Outro x1
G|--------------------------------------------------------------------|
D|--------------------------------------------------------------------|
A|4444----------------------------------------------------------------|
E|-----4444-22222222-4~-----------------------------------------------|


ONE DAY

from the begining

|----3/7-77-7--------7---------7---77-|
|-------------55--77---55--7-9---9----|
|-------------------------------------|
|-------------------------------------|

|----3/7-77-7--------7---------7---77-|
|-------------55--77---55--7-9---9----|
|-------------------------------------|
|-------------------------------------|

start singing
|--------------7--------7----|
|----------------55--77---55-| x3
|----------------------------|
|----5/10-1010---------------|


Bon j'envoie le reste demain apske là g la flemme lol ! ^^
Revenir en haut Aller en bas
Voir le profil de l'utilisateur
Véro
Admin
avatar

Féminin Nombre de messages : 4872
Age : 28
Localisation : Je suis partout et null part à la fois
Date d'inscription : 27/07/2005

MessageSujet: Re: Tablature Bass   Ven 23 Déc - 18:50

super, jles ai pas mal tous aussi ! Very Happy

_________________
Revenir en haut Aller en bas
Voir le profil de l'utilisateur
Invité
Invité
avatar


MessageSujet: Re: Tablature Bass   Mar 27 Déc - 18:38

bin moi non lol jlé é enfin trouvé dois-je dire lol kao
Revenir en haut Aller en bas
XLove_Davidx
Nouveau
avatar

Nombre de messages : 28
Localisation : 77
Date d'inscription : 16/12/2005

MessageSujet: Re: Tablature Bass   Mer 28 Déc - 9:36

wow Shocked !! tin moi je veux apprendre a jouer de la basse mais je capte rien a vos trucs (bon toute façon vouloir jouer de la basse sans basse c'est pas evident ^^') bref je verrais quand j'en aurais une, c'est a dire jamais!
Revenir en haut Aller en bas
Voir le profil de l'utilisateur
Véro
Admin
avatar

Féminin Nombre de messages : 4872
Age : 28
Localisation : Je suis partout et null part à la fois
Date d'inscription : 27/07/2005

MessageSujet: Re: Tablature Bass   Mer 28 Déc - 12:16

mouais ben moi c la seule façon que je sais en jouer, je ne sais pas lire autre chose pour le moment. lol

_________________
Revenir en haut Aller en bas
Voir le profil de l'utilisateur
anniebp18
Champion(ne)
avatar

Nombre de messages : 570
Localisation : Rimouski, Québec
Date d'inscription : 13/01/2006

MessageSujet: Re: Tablature Bass   Mer 25 Jan - 18:36

Allo, il y a toutes les tabs de Simple Plan de A à Z en plusieurs versions et pour les bass et les guitares !

http://www.ultimate-guitar.com/tabs/simple_plan_tabs.htm
Revenir en haut Aller en bas
Voir le profil de l'utilisateur http://sp-riki.over-blog.com
titetaly
* Membre Spécial *
avatar

Féminin Nombre de messages : 1200
Localisation : france
Date d'inscription : 19/11/2005

MessageSujet: Re: Tablature Bass   Jeu 26 Jan - 8:14

ouais c celles ke j'avais commencé à mettre ^^
merci d'avoir mis le lien ^^
Revenir en haut Aller en bas
Voir le profil de l'utilisateur
anniebp18
Champion(ne)
avatar

Nombre de messages : 570
Localisation : Rimouski, Québec
Date d'inscription : 13/01/2006

MessageSujet: Re: Tablature Bass   Jeu 26 Jan - 18:01

Ah dsl, je savais pas ! Ça va te prendre moins de temps loll !
Revenir en haut Aller en bas
Voir le profil de l'utilisateur http://sp-riki.over-blog.com
Véro
Admin
avatar

Féminin Nombre de messages : 4872
Age : 28
Localisation : Je suis partout et null part à la fois
Date d'inscription : 27/07/2005

MessageSujet: Re: Tablature Bass   Jeu 26 Jan - 20:08

ouais c quand meme correct davoir le lien direct.

_________________
Revenir en haut Aller en bas
Voir le profil de l'utilisateur
anniebp18
Champion(ne)
avatar

Nombre de messages : 570
Localisation : Rimouski, Québec
Date d'inscription : 13/01/2006

MessageSujet: Re: Tablature Bass   Jeu 26 Jan - 21:45

Vous jouez de la basse toutes les 2 ?
Revenir en haut Aller en bas
Voir le profil de l'utilisateur http://sp-riki.over-blog.com
Véro
Admin
avatar

Féminin Nombre de messages : 4872
Age : 28
Localisation : Je suis partout et null part à la fois
Date d'inscription : 27/07/2005

MessageSujet: Re: Tablature Bass   Jeu 26 Jan - 21:47

moi j'en joue en tout cas.

_________________
Revenir en haut Aller en bas
Voir le profil de l'utilisateur
anniebp18
Champion(ne)
avatar

Nombre de messages : 570
Localisation : Rimouski, Québec
Date d'inscription : 13/01/2006

MessageSujet: Re: Tablature Bass   Jeu 26 Jan - 21:57

Ok, je sais que titetaly en joue
Revenir en haut Aller en bas
Voir le profil de l'utilisateur http://sp-riki.over-blog.com
titetaly
* Membre Spécial *
avatar

Féminin Nombre de messages : 1200
Localisation : france
Date d'inscription : 19/11/2005

MessageSujet: Re: Tablature Bass   Ven 27 Jan - 17:58

oui je prends des corus depuis 5 mois lol !^^
et demain je fais un concert avec mon groupe ! je flippe de trop lol
Revenir en haut Aller en bas
Voir le profil de l'utilisateur
anniebp18
Champion(ne)
avatar

Nombre de messages : 570
Localisation : Rimouski, Québec
Date d'inscription : 13/01/2006

MessageSujet: Re: Tablature Bass   Ven 27 Jan - 18:01

Ah c'est cool ça !
Revenir en haut Aller en bas
Voir le profil de l'utilisateur http://sp-riki.over-blog.com
titetaly
* Membre Spécial *
avatar

Féminin Nombre de messages : 1200
Localisation : france
Date d'inscription : 19/11/2005

MessageSujet: Re: Tablature Bass   Ven 27 Jan - 18:02

oauis g vraiment trop hate d'y etre hello
Revenir en haut Aller en bas
Voir le profil de l'utilisateur
Véro
Admin
avatar

Féminin Nombre de messages : 4872
Age : 28
Localisation : Je suis partout et null part à la fois
Date d'inscription : 27/07/2005

MessageSujet: Re: Tablature Bass   Ven 27 Jan - 18:58

ah mais je te comprend! je sais ce que c'est et c'est trop super !

_________________
Revenir en haut Aller en bas
Voir le profil de l'utilisateur
anniebp18
Champion(ne)
avatar

Nombre de messages : 570
Localisation : Rimouski, Québec
Date d'inscription : 13/01/2006

MessageSujet: Re: Tablature Bass   Sam 28 Jan - 16:30

Véro a écrit:
ah mais je te comprend! je sais ce que c'est et c'est trop super !

T'as déjà fait un concert ?
Revenir en haut Aller en bas
Voir le profil de l'utilisateur http://sp-riki.over-blog.com
Véro
Admin
avatar

Féminin Nombre de messages : 4872
Age : 28
Localisation : Je suis partout et null part à la fois
Date d'inscription : 27/07/2005

MessageSujet: Re: Tablature Bass   Sam 28 Jan - 17:24

oui, plusieurs. ben amateur, mais c cool quand meme.

_________________
Revenir en haut Aller en bas
Voir le profil de l'utilisateur
Contenu sponsorisé




MessageSujet: Re: Tablature Bass   

Revenir en haut Aller en bas
 
Tablature Bass
Revenir en haut 
Page 1 sur 1
 Sujets similaires
-
» A l'affiche, dans le Nord : Citro-Retro (62 - Haisnes-Les-La-Bassée)
» tablature de rock jap
» Bourse militaria de la Bassée (59) le 4 janvier 09
» Bass Rock
» Rick Bass

Permission de ce forum:Vous ne pouvez pas répondre aux sujets dans ce forum
Simple Plan Fans ! :: .::Simple Plan::. :: Paroles/Traductions + Tabs-
Sauter vers: